Page 1 of 2 12 LastLast
Results 1 to 10 of 12
  1. #1
    NEMA ellijah's Avatar
    Join Date
    Aug 2011
    Posts
    5,634
    Points
    8,686
         User Info     Contact     Gamer ID
    Join Date
    Aug 2011
    Posts
    5,634
    Points
    8,686

    Default The first song I ever made on guitar

    Made this when I was like 12, pretty simple but it sounds good.

    For those of you that have no idea what tabs are, it is like reading music without actually having to know how to read sheet music.



    Intro:
    E -2---2---2---2--------2---2---2---2------2---2---2---2-----
    A ---4---5---4---0--------4---5---4---0------4---5---4---0---
    D -------------------------------------------------------------
    G -------------------------------------------------------------
    B -------------------------------------------------------------
    e -------------------------------------------------------------

    E -5---5---5---4---4---4---2----------------------------------
    A ---7---7-------6---6-----4----------------------------------
    D -------------------------------------------------------------
    G -------------------------------------------------------------
    B -------------------------------------------------------------
    e -------------------------------------------------------------

    Chorus: Play as many times as needed.
    E -2--2--2--2--2--2--2--2----3--3--3--3--3--3--3--3----------
    A -4- 4--4--4--4--4--4--4----5--5--5--5--5--5--5--5----------
    D -------------------------------------------------------------
    G -------------------------------------------------------------
    B -------------------------------------------------------------
    e -------------------------------------------------------------
    *Strumming pattern = down, down, down ,up, down, up, down, up

    E -2--2--2--2--2--2--2--2----3--3--3--3--3--3--3--3--2-------
    A -4- 4--4--4--4--4--4--4----5--5--5--5--5--5--5--5--4-------
    D -------------------------------------------------------------
    G -------------------------------------------------------------
    B -------------------------------------------------------------
    e -------------------------------------------------------------
    *Strumming pattern = down, down, down ,up, down, up, down, up(the last 2,4 is down)

    E -2--2--3----3--3--2-----------------------------------------
    A -4- 4--5----5--5--4-----------------------------------------
    D -------------------------------------------------------------
    G -------------------------------------------------------------
    B -------------------------------------------------------------
    e -------------------------------------------------------------
    *Strumming pattern = down, up, down

    End: The ending just goes back into the intro but you let it fade out at the end.
    E -2---2---2---2--------2---2---2---2------2---2---2---2-----
    A ---4---5---4---0--------4---5---4---0------4---5---4---0---
    D -------------------------------------------------------------
    G -------------------------------------------------------------
    B -------------------------------------------------------------
    e -------------------------------------------------------------

    E -5---5---5---4---4---4---2----------------------------------
    A ---7---7-------6---6-----4----------------------------------
    D -------------------------------------------------------------
    G -------------------------------------------------------------
    B -------------------------------------------------------------
    e -------------------------------------------------------------

    This was made 100% by me. I will post a recording later.

    0 Not allowed! Not allowed!
    Last edited by ellijah; 12-30-2012 at 07:18 PM.

  2. #2
    Just say no to drugs hell nah I ain't listen Drugs's Avatar

    Badge

    Join Date
    Jun 2011
    Location
    /r/Pokmon
    Posts
    3,565
    Points
    2,721
         User Info     Contact     Gamer ID
    Join Date
    Jun 2011
    Location
    /r/Pokmon
    Posts
    3,565
    Points
    2,721
    Gamer IDs

    Gamertag: Spin Master PSN ID: xTiPToN_- Steam ID: xTipton

    Contact info:

    Youtube Channel: http://www.youtube.com/users/xTiPToN

    Default

    Sounds like it needs a melody.. How long is it?

    0 Not allowed! Not allowed!

  3. #3
    Overkill
    ProdigyWorldWide
    Genesis's Avatar
    Join Date
    Jan 2012
    Location
    Canada
    Posts
    1,470
    Points
    1,087
         User Info     Contact     Gamer ID
    Join Date
    Jan 2012
    Location
    Canada
    Posts
    1,470
    Points
    1,087
    Gamer IDs

    PSN ID: xSMMx1337

    Default

    I'm going to try this out, If I could find my guitar pick

    0 Not allowed! Not allowed!

    Quote Originally Posted by ph4ze Anthony View Post
    TAKE DOWN OR ELSE IM GETINGT THE POLICE AND FBI MY FATHER WORKS FOR THE FEDERAL GOVERNMENT
    Quote Originally Posted by Soda View Post
    i have a small pneis

  4. #4
    NEMA ellijah's Avatar
    Join Date
    Aug 2011
    Posts
    5,634
    Points
    8,686
         User Info     Contact     Gamer ID
    Join Date
    Aug 2011
    Posts
    5,634
    Points
    8,686

    Default

    Quote Originally Posted by SHiiFT View Post
    Sounds like it needs a melody.. How long is it?
    Depends how many times you play the chorus, about three times sounds good. I never made lyrics for the song.

    0 Not allowed! Not allowed!
    Last edited by ellijah; 12-30-2012 at 04:57 PM.

  5. #5
    #NGAP
    Nizzy's Avatar

    Badge

    Join Date
    Apr 2012
    Location
    Kanto Region
    Posts
    3,447
    Points
    5,748
         User Info     Contact     Gamer ID
    Join Date
    Apr 2012
    Location
    Kanto Region
    Posts
    3,447
    Points
    5,748
    Gamer IDs

    Gamertag: AdDiCtEdToNizzY PSN ID: NizzyGames Steam ID: NizzyArts

    Contact info:

    Youtube Channel: http://www.youtube.com/addictedtonizzy Kik Username: RichHomieNizzy

    Default

    Thats actually really simple! Nice share I also play the guitar. This is my 3rd year playing it.

    0 Not allowed! Not allowed!

  6. #6
    Just say no to drugs hell nah I ain't listen Drugs's Avatar

    Badge

    Join Date
    Jun 2011
    Location
    /r/Pokmon
    Posts
    3,565
    Points
    2,721
         User Info     Contact     Gamer ID
    Join Date
    Jun 2011
    Location
    /r/Pokmon
    Posts
    3,565
    Points
    2,721
    Gamer IDs

    Gamertag: Spin Master PSN ID: xTiPToN_- Steam ID: xTipton

    Contact info:

    Youtube Channel: http://www.youtube.com/users/xTiPToN

    Default

    Quote Originally Posted by Ellijah View Post
    Depends how many times you play the chorus, about three times sounds good. I never made lyrics for the song.
    Send me a clean recording and I'll write you somethin. If you have a song theme in mind, lemme know.

    0 Not allowed! Not allowed!

  7. #7
    Active Member ParadoxContra's Avatar

    Badge

    Join Date
    Nov 2012
    Location
    Texas Bitch!!!
    Posts
    826
    Points
    1,347
         User Info     Contact     Gamer ID
    Join Date
    Nov 2012
    Location
    Texas Bitch!!!
    Posts
    826
    Points
    1,347
    Gamer IDs

    PSN ID: NovaGfx

    Default

    in beginning sounds like one by metallica

    0 Not allowed! Not allowed!

  8. #8
    NEMA ellijah's Avatar
    Join Date
    Aug 2011
    Posts
    5,634
    Points
    8,686
         User Info     Contact     Gamer ID
    Join Date
    Aug 2011
    Posts
    5,634
    Points
    8,686

    Default

    Quote Originally Posted by NovaGfx14 View Post
    in beginning sounds like one by metallica
    Na, I am about to post a recording it sounds nothing like metallica.

    I had to record the audio with a shitty mic on my laptop so it's not great but it sounds petty good.

    /bump
    I added the song to the original post.

    0 Not allowed! Not allowed!
    Last edited by ellijah; 12-30-2012 at 07:34 PM.

  9. #9
    Active Member ParadoxContra's Avatar

    Badge

    Join Date
    Nov 2012
    Location
    Texas Bitch!!!
    Posts
    826
    Points
    1,347
         User Info     Contact     Gamer ID
    Join Date
    Nov 2012
    Location
    Texas Bitch!!!
    Posts
    826
    Points
    1,347
    Gamer IDs

    PSN ID: NovaGfx

    Default

    sucky mic but i like the way it sounds... the style reminds me of iron maiden nice job bro

    0 Not allowed! Not allowed!

  10. #10
    Penish Box's Avatar
    Join Date
    Feb 2012
    Posts
    1,541
    Points
    2,649
         User Info     Contact     Gamer ID
    Join Date
    Feb 2012
    Posts
    1,541
    Points
    2,649

    Default

    sounds good elli :o

    0 Not allowed! Not allowed!

Bookmarks

Bookmarks

Posting Permissions

  • You may not post new threads
  • You may not post replies
  • You may not post attachments
  • You may not edit your posts
  •  
All times are GMT -10. The time now is 10:55 PM.
Powered by vBulletin®
Copyright © 2018 vBulletin Solutions, Inc. All rights reserved.